  0
SECTION
  2
HEADER
  9
$ACADVER
  1
AC1015
  9
$ACADMAINTVER
 70
     6
  9
$DWGCODEPAGE
  3
ANSI_1254
  9
$INSBASE
 10
0.0
 20
0.0
 30
0.0
  9
$EXTMIN
 10
0.0
 20
0.0
 30
0.0
  9
$EXTMAX
 10
279.4
 20
215.9
 30
0.0
  9
$LIMMIN
 10
0.0
 20
0.0
  9
$LIMMAX
 10
279.4
 20
215.9
  9
$ORTHOMODE
 70
     0
  9
$REGENMODE
 70
     1
  9
$FILLMODE
 70
     1
  9
$QTEXTMODE
 70
     0
  9
$MIRRTEXT
 70
     1
  9
$LTSCALE
 40
1.0
  9
$ATTMODE
 70
     1
  9
$TEXTSIZE
 40
3.5
  9
$TRACEWID
 40
1.0
  9
$TEXTSTYLE
  7
Standard
  9
$CLAYER
  8
0
  9
$CELTYPE
  6
ByLayer
  9
$CECOLOR
 62
   256
  9
$CELTSCALE
 40
1.0
  9
$DISPSILH
 70
     0
  9
$DIMSCALE
 40
1.0
  9
$DIMASZ
 40
3.5
  9
$DIMEXO
 40
1.0
  9
$DIMDLI
 40
3.75
  9
$DIMRND
 40
0.0
  9
$DIMDLE
 40
0.0
  9
$DIMEXE
 40
1.0
  9
$DIMTP
 40
0.0
  9
$DIMTM
 40
0.0
  9
$DIMTXT
 40
3.5
  9
$DIMCEN
 40
2.5
  9
$DIMTSZ
 40
0.0
  9
$DIMTOL
 70
     0
  9
$DIMLIM
 70
     0
  9
$DIMTIH
 70
     1
  9
$DIMTOH
 70
     1
  9
$DIMSE1
 70
     0
  9
$DIMSE2
 70
     0
  9
$DIMTAD
 70
     1
  9
$DIMZIN
 70
     0
  9
$DIMBLK
  1

  9
$DIMASO
 70
     1
  9
$DIMSHO
 70
     1
  9
$DIMPOST
  1

  9
$DIMAPOST
  1

  9
$DIMALT
 70
     0
  9
$DIMALTD
 70
     3
  9
$DIMALTF
 40
0.0393700787
  9
$DIMLFAC
 40
1.0
  9
$DIMTOFL
 70
     1
  9
$DIMTVP
 40
0.0
  9
$DIMTIX
 70
     0
  9
$DIMSOXD
 70
     0
  9
$DIMSAH
 70
     0
  9
$DIMBLK1
  1

  9
$DIMBLK2
  1

  9
$DIMSTYLE
  2
ISO-25
  9
$DIMCLRD
 70
     0
  9
$DIMCLRE
 70
     0
  9
$DIMCLRT
 70
     0
  9
$DIMTFAC
 40
1.0
  9
$DIMGAP
 40
1.524
  9
$DIMJUST
 70
     0
  9
$DIMSD1
 70
     0
  9
$DIMSD2
 70
     0
  9
$DIMTOLJ
 70
     0
  9
$DIMTZIN
 70
     0
  9
$DIMALTZ
 70
     0
  9
$DIMALTTZ
 70
     0
  9
$DIMUPT
 70
     0
  9
$DIMDEC
 70
     2
  9
$DIMTDEC
 70
     2
  9
$DIMALTU
 70
     2
  9
$DIMALTTD
 70
     3
  9
$DIMTXSTY
  7
Standard
  9
$DIMAUNIT
 70
     0
  9
$DIMADEC
 70
     2
  9
$DIMALTRND
 40
0.0
  9
$DIMAZIN
 70
     0
  9
$DIMDSEP
 70
    44
  9
$DIMATFIT
 70
     3
  9
$DIMFRAC
 70
     0
  9
$DIMLDRBLK
  1

  9
$DIMLUNIT
 70
     2
  9
$DIMLWD
 70
    -2
  9
$DIMLWE
 70
    -2
  9
$DIMTMOVE
 70
     0
  9
$LUNITS
 70
     2
  9
$LUPREC
 70
     2
  9
$SKETCHINC
 40
1.0
  9
$FILLETRAD
 40
10.0
  9
$AUNITS
 70
     0
  9
$AUPREC
 70
     2
  9
$MENU
  1
.
  9
$ELEVATION
 40
0.0
  9
$PELEVATION
 40
0.0
  9
$THICKNESS
 40
0.0
  9
$LIMCHECK
 70
     0
  9
$CHAMFERA
 40
0.0
  9
$CHAMFERB
 40
0.0
  9
$CHAMFERC
 40
0.0
  9
$CHAMFERD
 40
0.0
  9
$SKPOLY
 70
     0
  9
$TDCREATE
 40
2458985.633213252
  9
$TDUCREATE
 40
2458985.508213252
  9
$TDUPDATE
 40
2458985.633213484
  9
$TDUUPDATE
 40
2458985.508213484
  9
$TDINDWG
 40
0.0000000116
  9
$TDUSRTIMER
 40
0.0000000116
  9
$USRTIMER
 70
     1
  9
$ANGBASE
 50
0.0
  9
$ANGDIR
 70
     0
  9
$PDMODE
 70
     0
  9
$PDSIZE
 40
-1.0
  9
$PLINEWID
 40
0.0
  9
$SPLFRAME
 70
     0
  9
$SPLINETYPE
 70
     6
  9
$SPLINESEGS
 70
     8
  9
$HANDSEED
  5
CB
  9
$SURFTAB1
 70
     6
  9
$SURFTAB2
 70
     6
  9
$SURFTYPE
 70
     6
  9
$SURFU
 70
     6
  9
$SURFV
 70
     6
  9
$UCSBASE
  2

  9
$UCSNAME
  2

  9
$UCSORG
 10
0.0
 20
0.0
 30
0.0
  9
$UCSXDIR
 10
1.0
 20
0.0
 30
0.0
  9
$UCSYDIR
 10
0.0
 20
1.0
 30
0.0
  9
$UCSORTHOREF
  2

  9
$UCSORTHOVIEW
 70
     0
  9
$UCSORGTOP
 10
0.0
 20
0.0
 30
0.0
  9
$UCSORGBOTTOM
 10
0.0
 20
0.0
 30
0.0
  9
$UCSORGLEFT
 10
0.0
 20
0.0
 30
0.0
  9
$UCSORGRIGHT
 10
0.0
 20
0.0
 30
0.0
  9
$UCSORGFRONT
 10
0.0
 20
0.0
 30
0.0
  9
$UCSORGBACK
 10
0.0
 20
0.0
 30
0.0
  9
$PUCSBASE
  2

  9
$PUCSNAME
  2

  9
$PUCSORG
 10
0.0
 20
0.0
 30
0.0
  9
$PUCSXDIR
 10
1.0
 20
0.0
 30
0.0
  9
$PUCSYDIR
 10
0.0
 20
1.0
 30
0.0
  9
$PUCSORTHOREF
  2

  9
$PUCSORTHOVIEW
 70
     0
  9
$PUCSORGTOP
 10
0.0
 20
0.0
 30
0.0
  9
$PUCSORGBOTTOM
 10
0.0
 20
0.0
 30
0.0
  9
$PUCSORGLEFT
 10
0.0
 20
0.0
 30
0.0
  9
$PUCSORGRIGHT
 10
0.0
 20
0.0
 30
0.0
  9
$PUCSORGFRONT
 10
0.0
 20
0.0
 30
0.0
  9
$PUCSORGBACK
 10
0.0
 20
0.0
 30
0.0
  9
$USERI1
 70
     0
  9
$USERI2
 70
     0
  9
$USERI3
 70
     0
  9
$USERI4
 70
     0
  9
$USERI5
 70
     0
  9
$USERR1
 40
0.0
  9
$USERR2
 40
0.0
  9
$USERR3
 40
0.0
  9
$USERR4
 40
0.0
  9
$USERR5
 40
0.0
  9
$WORLDVIEW
 70
     1
  9
$SHADEDGE
 70
     3
  9
$SHADEDIF
 70
    70
  9
$TILEMODE
 70
     1
  9
$MAXACTVP
 70
    64
  9
$PINSBASE
 10
0.0
 20
0.0
 30
0.0
  9
$PLIMCHECK
 70
     0
  9
$PEXTMIN
 10
1.0000000000E+20
 20
1.0000000000E+20
 30
1.0000000000E+20
  9
$PEXTMAX
 10
-1.0000000000E+20
 20
-1.0000000000E+20
 30
-1.0000000000E+20
  9
$PLIMMIN
 10
0.0
 20
0.0
  9
$PLIMMAX
 10
420.0
 20
297.0
  9
$UNITMODE
 70
     0
  9
$VISRETAIN
 70
     1
  9
$PLINEGEN
 70
     0
  9
$PSLTSCALE
 70
     1
  9
$TREEDEPTH
 70
  3020
  9
$CMLSTYLE
  2
Standard
  9
$CMLJUST
 70
     0
  9
$CMLSCALE
 40
20.0
  9
$PROXYGRAPHICS
 70
     1
  9
$MEASUREMENT
 70
     1
  9
$CELWEIGHT
370
    -1
  9
$ENDCAPS
280
     0
  9
$JOINSTYLE
280
     0
  9
$LWDISPLAY
290
     1
  9
$INSUNITS
 70
     4
  9
$HYPERLINKBASE
  1

  9
$STYLESHEET
  1

  9
$XEDIT
290
     1
  9
$CEPSNTYPE
380
     0
  9
$PSTYLEMODE
290
     1
  9
$FINGERPRINTGUID
  2
{8d2e101b-d2cb-4158-9e53-8ba5fa0b7d4a}
  9
$VERSIONGUID
  2
{FAEB1C32-E019-11D5-929B-00C0DF256EC4}
  9
$EXTNAMES
290
     1
  9
$PSVPSCALE
 40
0.0
  9
$OLESTARTUP
290
     0
  0
ENDSEC
  0
SECTION
  2
CLASSES
  0
CLASS
  1
ACDBDICTIONARYWDFLT
  2
AcDbDictionaryWithDefault
  3
ObjectDBX Classes
 90
        0
280
     0
281
     0
  0
CLASS
  1
VISUALSTYLE
  2
AcDbVisualStyle
  3
ObjectDBX Classes
 90
     4095
280
     0
281
     0
  0
CLASS
  1
MATERIAL
  2
AcDbMaterial
  3
ObjectDBX Classes
 90
     1153
280
     0
281
     0
  0
CLASS
  1
SCALE
  2
AcDbScale
  3
ObjectDBX Classes
 90
     1153
280
     0
281
     0
  0
CLASS
  1
TABLESTYLE
  2
AcDbTableStyle
  3
ObjectDBX Classes
 90
     4095
280
     0
281
     0
  0
CLASS
  1
MLEADERSTYLE
  2
AcDbMLeaderStyle
  3
ACDB_MLEADERSTYLE_CLASS
 90
     4095
280
     0
281
     0
  0
CLASS
  1
SUN
  2
AcDbSun
  3
SCENEOE
 90
     1153
280
     0
281
     0
  0
CLASS
  1
ACDBPLACEHOLDER
  2
AcDbPlaceHolder
  3
ObjectDBX Classes
 90
        0
280
     0
281
     0
  0
CLASS
  1
LAYOUT
  2
AcDbLayout
  3
ObjectDBX Classes
 90
        0
280
     0
281
     0
  0
ENDSEC
  0
SECTION
  2
TABLES
  0
TABLE
  2
VPORT
  5
8
330
0
100
AcDbSymbolTable
 70
     1
  0
VPORT
  5
29
330
8
100
AcDbSymbolTableRecord
100
AcDbViewportTableRecord
  2
*Active
 70
     0
 10
0.0
 20
0.0
 11
1.0
 21
1.0
 12
139.7
 22
107.95
 13
0.0
 23
0.0
 14
10.0
 24
10.0
 15
10.0
 25
10.0
 16
0.0
 26
0.0
 36
1.0
 17
0.0
 27
0.0
 37
0.0
 40
215.9
 41
1.2941176471
 42
50.0
 43
0.0
 44
0.0
 50
0.0
 51
0.0
 71
     0
 72
  2000
 73
     1
 74
     3
 75
     0
 76
     0
 77
     0
 78
     0
281
     0
 65
     1
110
0.0
120
0.0
130
0.0
111
1.0
121
0.0
131
0.0
112
0.0
122
1.0
132
0.0
 79
     0
146
0.0
  0
ENDTAB
  0
TABLE
  2
LTYPE
  5
5
330
0
100
AcDbSymbolTable
 70
     6
  0
LTYPE
  5
14
330
5
100
AcDbSymbolTableRecord
100
AcDbLinetypeTableRecord
  2
ByBlock
 70
     0
  3

 72
    65
 73
     0
 40
0.0
  0
LTYPE
  5
15
330
5
100
AcDbSymbolTableRecord
100
AcDbLinetypeTableRecord
  2
ByLayer
 70
     0
  3

 72
    65
 73
     0
 40
0.0
  0
LTYPE
  5
16
330
5
100
AcDbSymbolTableRecord
100
AcDbLinetypeTableRecord
  2
Continuous
 70
     0
  3
Solid line
 72
    65
 73
     0
 40
0.0
  0
LTYPE
  5
6E
330
5
100
AcDbSymbolTableRecord
100
AcDbLinetypeTableRecord
  2
HIDDEN
 70
     0
  3
Hidden __ __ __ __ __ __ __ __ __ __ __ __ __ __
 72
    65
 73
     2
 40
1.905
 49
1.27
 74
     0
 49
-0.635
 74
     0
  0
LTYPE
  5
6F
330
5
100
AcDbSymbolTableRecord
100
AcDbLinetypeTableRecord
  2
PHANTOM
 70
     0
  3
Phantom ______  __  __  ______  __  __  ______
 72
    65
 73
     6
 40
12.7
 49
6.35
 74
     0
 49
-1.27
 74
     0
 49
1.27
 74
     0
 49
-1.27
 74
     0
 49
1.27
 74
     0
 49
-1.27
 74
     0
  0
LTYPE
  5
70
330
5
100
AcDbSymbolTableRecord
100
AcDbLinetypeTableRecord
  2
CENTER
 70
     0
  3
Center ____ _ ____ _ ____ _ ____ _ ____ _ ____
 72
    65
 73
     4
 40
10.16
 49
6.35
 74
     0
 49
-1.27
 74
     0
 49
1.27
 74
     0
 49
-1.27
 74
     0
  0
LTYPE
  5
71
330
5
100
AcDbSymbolTableRecord
100
AcDbLinetypeTableRecord
  2
CENTERX2
 70
     0
  3
Center (2x) ________  __  ________  __  _____
 72
    65
 73
     4
 40
20.32
 49
12.7
 74
     0
 49
-2.54
 74
     0
 49
2.54
 74
     0
 49
-2.54
 74
     0
  0
LTYPE
  5
72
330
5
100
AcDbSymbolTableRecord
100
AcDbLinetypeTableRecord
  2
DOT2
 70
     0
  3
Dot (.5x) ........................................
 72
    65
 73
     2
 40
0.635
 49
0.0
 74
     0
 49
-0.635
 74
     0
  0
ENDTAB
  0
TABLE
  2
LAYER
  5
2
330
0
100
AcDbSymbolTable
 70
    17
  0
LAYER
  5
10
330
2
100
AcDbSymbolTableRecord
100
AcDbLayerTableRecord
  2
0
 70
     0
 62
     7
  6
Continuous
370
    -3
390
F
  0
LAYER
  5
73
330
2
100
AcDbSymbolTableRecord
100
AcDbLayerTableRecord
  2
FORMAT
 70
     0
 62
     7
  6
Continuous
370
    -3
390
F
  0
LAYER
  5
74
330
2
100
AcDbSymbolTableRecord
100
AcDbLayerTableRecord
  2
YARDIMCI_GEOMETRI
 70
     0
 62
    -6
  6
Continuous
290
     0
370
    -3
390
F
  0
LAYER
  5
75
330
2
100
AcDbSymbolTableRecord
100
AcDbLayerTableRecord
  2
SAYFA_CERCEVESI
 70
     0
 62
     7
  6
Continuous
370
    25
390
F
  0
LAYER
  5
76
330
2
100
AcDbSymbolTableRecord
100
AcDbLayerTableRecord
  2
ANTET
 70
     0
 62
     7
  6
Continuous
370
    -3
390
F
  0
LAYER
  5
77
330
2
100
AcDbSymbolTableRecord
100
AcDbLayerTableRecord
  2
OLCU
 70
     0
 62
   150
  6
Continuous
370
    -3
390
F
  0
LAYER
  5
78
330
2
100
AcDbSymbolTableRecord
100
AcDbLayerTableRecord
  2
METIN
 70
     0
 62
    96
  6
Continuous
370
    -3
390
F
  0
LAYER
  5
79
330
2
100
AcDbSymbolTableRecord
100
AcDbLayerTableRecord
  2
BALON
 70
     0
 62
     5
  6
Continuous
370
    -3
390
F
  0
LAYER
  5
7A
330
2
100
AcDbSymbolTableRecord
100
AcDbLayerTableRecord
  2
VURGU
 70
     0
 62
     7
  6
Continuous
370
    -3
390
F
  0
LAYER
  5
7B
330
2
100
AcDbSymbolTableRecord
100
AcDbLayerTableRecord
  2
SILIK
 70
     0
 62
     7
  6
Continuous
370
    -3
390
F
  0
LAYER
  5
7C
330
2
100
AcDbSymbolTableRecord
100
AcDbLayerTableRecord
  2
MODEL
 70
     0
 62
     7
  6
Continuous
370
    -3
390
F
  0
LAYER
  5
7D
330
2
100
AcDbSymbolTableRecord
100
AcDbLayerTableRecord
  2
DETAYLANDıRMA
 70
     0
 62
   190
  6
Continuous
370
    -3
390
F
  0
LAYER
  5
7E
330
2
100
AcDbSymbolTableRecord
100
AcDbLayerTableRecord
  2
TOLERANS
 70
     0
 62
   230
  6
Continuous
370
    -3
390
F
  0
LAYER
  5
7F
330
2
100
AcDbSymbolTableRecord
100
AcDbLayerTableRecord
  2
MERKEZ_CIZGILERI
 70
     0
 62
    30
  6
Continuous
370
    -3
390
F
  0
LAYER
  5
80
330
2
100
AcDbSymbolTableRecord
100
AcDbLayerTableRecord
  2
KESIT-DETAY_CIZGILERI
 70
     0
 62
     7
  6
Continuous
370
    -3
390
F
  0
LAYER
  5
81
330
2
100
AcDbSymbolTableRecord
100
AcDbLayerTableRecord
  2
\U+041E\U+0421\U+0415\U+0412\U+042B\U+0415
 70
     0
 62
     7
  6
Continuous
370
    -3
390
F
  0
LAYER
  5
82
330
2
100
AcDbSymbolTableRecord
100
AcDbLayerTableRecord
  2
\U+0412\U+041E\U+0414\U+042F\U+041D\U+042B\U+0415_\U+0417\U+041D\U+0410\U+041A\U+0418
 70
     0
 62
    11
  6
Continuous
370
    -3
390
F
  0
ENDTAB
  0
TABLE
  2
STYLE
  5
3
330
0
100
AcDbSymbolTable
 70
     1
  0
STYLE
  5
11
330
3
100
AcDbSymbolTableRecord
100
AcDbTextStyleTableRecord
  2
Standard
 70
     0
 40
0.0
 41
1.0
 50
0.0
 71
     0
 42
3.5
  3
txt
  4

  0
ENDTAB
  0
TABLE
  2
VIEW
  5
6
330
0
100
AcDbSymbolTable
 70
     0
  0
ENDTAB
  0
TABLE
  2
UCS
  5
7
330
0
100
AcDbSymbolTable
 70
     0
  0
ENDTAB
  0
TABLE
  2
APPID
  5
9
330
0
100
AcDbSymbolTable
 70
     1
  0
APPID
  5
12
330
9
100
AcDbSymbolTableRecord
100
AcDbRegAppTableRecord
  2
ACAD
 70
     0
  0
ENDTAB
  0
TABLE
  2
DIMSTYLE
  5
A
330
0
100
AcDbSymbolTable
 70
     1
100
AcDbDimStyleTable
  0
DIMSTYLE
105
27
330
A
100
AcDbSymbolTableRecord
100
AcDbDimStyleTableRecord
  2
ISO-25
 70
     0
 41
2.5
 42
0.625
 43
3.75
 44
1.25
 73
     0
 74
     0
 77
     1
 78
     8
140
2.5
141
2.5
143
0.0393700787
147
0.625
171
     3
172
     1
178
     0
271
     2
272
     2
274
     3
278
    44
283
     0
284
     8
340
11
  0
ENDTAB
  0
TABLE
  2
BLOCK_RECORD
  5
1
330
0
100
AcDbSymbolTable
 70
     2
  0
BLOCK_RECORD
  5
1F
330
1
100
AcDbSymbolTableRecord
100
AcDbBlockTableRecord
  2
*Model_Space
340
22
  0
BLOCK_RECORD
  5
1B
330
1
100
AcDbSymbolTableRecord
100
AcDbBlockTableRecord
  2
*Paper_Space
340
1E
  0
BLOCK_RECORD
  5
23
330
1
100
AcDbSymbolTableRecord
100
AcDbBlockTableRecord
  2
*Paper_Space0
340
26
  0
BLOCK_RECORD
  5
87
330
1
100
AcDbSymbolTableRecord
100
AcDbBlockTableRecord
  2
SW_CENTERMARKSYMBOL_0
340
0
102
{BLKREFS
331
92
102
}
  0
ENDTAB
  0
ENDSEC
  0
SECTION
  2
BLOCKS
  0
BLOCK
  5
20
330
1F
100
AcDbEntity
  8
0
100
AcDbBlockBegin
  2
*Model_Space
 70
     0
 10
0.0
 20
0.0
 30
0.0
  3
*Model_Space
  1

  0
ENDBLK
  5
21
330
1F
100
AcDbEntity
  8
0
100
AcDbBlockEnd
  0
BLOCK
  5
1C
330
1B
100
AcDbEntity
 67
     1
  8
0
100
AcDbBlockBegin
  2
*Paper_Space
 70
     0
 10
0.0
 20
0.0
 30
0.0
  3
*Paper_Space
  1

  0
ENDBLK
  5
1D
330
1B
100
AcDbEntity
 67
     1
  8
0
100
AcDbBlockEnd
  0
BLOCK
  5
24
330
23
100
AcDbEntity
  8
0
100
AcDbBlockBegin
  2
*Paper_Space0
 70
     0
 10
0.0
 20
0.0
 30
0.0
  3
*Paper_Space0
  1

  0
ENDBLK
  5
25
330
23
100
AcDbEntity
  8
0
100
AcDbBlockEnd
  0
BLOCK
  5
88
330
87
100
AcDbEntity
  8
0
100
AcDbBlockBegin
  2
SW_CENTERMARKSYMBOL_0
 70
     0
 10
0.0
 20
0.0
 30
0.0
  3
SW_CENTERMARKSYMBOL_0
  1

  0
LINE
  5
8A
330
87
100
AcDbEntity
  8
FORMAT
 62
     0
100
AcDbLine
 10
0.0
 20
0.0
 30
0.0
 11
0.0
 21
2.5
 31
0.0
  0
LINE
  5
8B
330
87
100
AcDbEntity
  8
FORMAT
 62
     0
100
AcDbLine
 10
0.0
 20
0.0
 30
0.0
 11
-2.5
 21
0.0
 31
0.0
  0
LINE
  5
8C
330
87
100
AcDbEntity
  8
FORMAT
 62
     0
100
AcDbLine
 10
0.0
 20
0.0
 30
0.0
 11
0.0
 21
-2.5
 31
0.0
  0
LINE
  5
8D
330
87
100
AcDbEntity
  8
FORMAT
 62
     0
100
AcDbLine
 10
0.0
 20
0.0
 30
0.0
 11
2.5
 21
0.0
 31
0.0
  0
LINE
  5
8E
330
87
100
AcDbEntity
  8
FORMAT
 62
     0
100
AcDbLine
 10
0.0
 20
5.0
 30
0.0
 11
0.0
 21
136.5
 31
0.0
  0
LINE
  5
8F
330
87
100
AcDbEntity
  8
FORMAT
 62
     0
100
AcDbLine
 10
-5.0
 20
0.0
 30
0.0
 11
-136.5
 21
0.0
 31
0.0
  0
LINE
  5
90
330
87
100
AcDbEntity
  8
FORMAT
 62
     0
100
AcDbLine
 10
0.0
 20
-5.0
 30
0.0
 11
0.0
 21
-136.5
 31
0.0
  0
LINE
  5
91
330
87
100
AcDbEntity
  8
FORMAT
 62
     0
100
AcDbLine
 10
5.0
 20
0.0
 30
0.0
 11
136.5
 21
0.0
 31
0.0
  0
ENDBLK
  5
89
330
87
100
AcDbEntity
  8
0
100
AcDbBlockEnd
  0
ENDSEC
  0
SECTION
  2
ENTITIES
  0
CIRCLE
  5
83
330
1F
100
AcDbEntity
  8
0
  6
Continuous
 62
     7
370
    25
100
AcDbCircle
 10
142.9934680851
 20
119.1714893617
 30
0.0
 40
112.5
  0
CIRCLE
  5
84
330
1F
100
AcDbEntity
  8
0
  6
Continuous
 62
     7
370
    25
100
AcDbCircle
 10
142.9934680851
 20
119.1714893617
 30
0.0
 40
91.99999999999997
  0
CIRCLE
  5
85
330
1F
100
AcDbEntity
  8
0
  6
Continuous
 62
     7
370
    25
100
AcDbCircle
 10
142.9934680851
 20
119.1714893617
 30
0.0
 40
119.0
  0
CIRCLE
  5
86
330
1F
100
AcDbEntity
  8
0
  6
Continuous
 62
     7
370
    25
100
AcDbCircle
 10
142.9934680851
 20
119.1714893617
 30
0.0
 40
134.0
  0
INSERT
  5
92
330
1F
100
AcDbEntity
  8
FORMAT
 62
     7
100
AcDbBlockReference
  2
SW_CENTERMARKSYMBOL_0
 10
142.9934680851
 20
119.1714893617
 30
0.0
  0
LINE
  5
93
330
1F
100
AcDbEntity
  8
0
  6
Continuous
 62
     7
370
    25
100
AcDbLine
 10
276.9934680851
 20
315.4173164713
 30
0.0
 11
276.9934680851
 21
347.4173164713
 31
0.0
  0
LINE
  5
94
330
1F
100
AcDbEntity
  8
0
  6
Continuous
 62
     7
370
    25
100
AcDbLine
 10
8.9934680851
 20
347.4173164713
 30
0.0
 11
8.9934680851
 21
315.4173164713
 31
0.0
  0
LINE
  5
95
330
1F
100
AcDbEntity
  8
0
  6
Continuous
 62
     7
370
    25
100
AcDbLine
 10
261.9934680851
 20
347.4173164713
 30
0.0
 11
255.4934680851
 21
366.4173164713
 31
0.0
  0
LINE
  5
96
330
1F
100
AcDbEntity
  8
0
  6
Continuous
 62
     7
370
    25
100
AcDbLine
 10
30.4934680851
 20
366.4173164713
 30
0.0
 11
23.9934680851
 21
347.4173164713
 31
0.0
  0
LINE
  5
97
330
1F
100
AcDbEntity
  8
0
  6
Continuous
 62
     7
370
    25
100
AcDbLine
 10
255.4934680851
 20
366.4173164713
 30
0.0
 11
255.4934680851
 21
495.4173164713
 31
0.0
  0
LINE
  5
98
330
1F
100
AcDbEntity
  8
0
  6
Continuous
 62
     7
370
    25
100
AcDbLine
 10
30.4934680851
 20
495.4173164713
 30
0.0
 11
30.4934680851
 21
366.4173164713
 31
0.0
  0
LINE
  5
99
330
1F
100
AcDbEntity
  8
0
  6
Continuous
 62
     7
370
    25
100
AcDbLine
 10
276.9934680851
 20
315.4173164713
 30
0.0
 11
8.9934680851
 21
315.4173164713
 31
0.0
  0
LINE
  5
9A
330
1F
100
AcDbEntity
  8
0
  6
Continuous
 62
     7
370
    25
100
AcDbLine
 10
276.9934680851
 20
347.4173164713
 30
0.0
 11
8.9934680851
 21
347.4173164713
 31
0.0
  0
LINE
  5
9B
330
1F
100
AcDbEntity
  8
0
  6
Continuous
 62
     7
370
    25
100
AcDbLine
 10
255.4934680851
 20
366.4173164713
 30
0.0
 11
30.4934680851
 21
366.4173164713
 31
0.0
  0
LINE
  5
9C
330
1F
100
AcDbEntity
  8
0
  6
Continuous
 62
     7
370
    25
100
AcDbLine
 10
255.4934680851
 20
495.4173164713
 30
0.0
 11
30.4934680851
 21
495.4173164713
 31
0.0
  0
LINE
  5
9D
330
1F
100
AcDbEntity
  8
0
  6
Continuous
 62
     7
370
    25
100
AcDbLine
 10
-83.7152507276
 20
253.1714893617
 30
0.0
 11
-115.7152507276
 21
253.1714893617
 31
0.0
  0
LINE
  5
9E
330
1F
100
AcDbEntity
  8
0
  6
Continuous
 62
     7
370
    25
100
AcDbLine
 10
-115.7152507276
 20
-14.8285106383
 30
0.0
 11
-83.7152507276
 21
-14.8285106383
 31
0.0
  0
LINE
  5
9F
330
1F
100
AcDbEntity
  8
0
  6
Continuous
 62
     7
370
    25
100
AcDbLine
 10
-115.7152507276
 20
238.1714893617
 30
0.0
 11
-134.7152507276
 21
231.6714893617
 31
0.0
  0
LINE
  5
A0
330
1F
100
AcDbEntity
  8
0
  6
Continuous
 62
     7
370
    25
100
AcDbLine
 10
-134.7152507276
 20
6.6714893617
 30
0.0
 11
-115.7152507276
 21
0.1714893617
 31
0.0
  0
LINE
  5
A1
330
1F
100
AcDbEntity
  8
0
  6
Continuous
 62
     7
370
    25
100
AcDbLine
 10
-134.7152507276
 20
231.6714893617
 30
0.0
 11
-263.7152507276
 21
231.6714893617
 31
0.0
  0
LINE
  5
A2
330
1F
100
AcDbEntity
  8
0
  6
Continuous
 62
     7
370
    25
100
AcDbLine
 10
-263.7152507276
 20
6.6714893617
 30
0.0
 11
-134.7152507276
 21
6.6714893617
 31
0.0
  0
LINE
  5
A3
330
1F
100
AcDbEntity
  8
0
  6
Continuous
 62
     7
370
    25
100
AcDbLine
 10
-83.7152507276
 20
253.1714893617
 30
0.0
 11
-83.7152507276
 21
-14.8285106383
 31
0.0
  0
LINE
  5
A4
330
1F
100
AcDbEntity
  8
0
  6
Continuous
 62
     7
370
    25
100
AcDbLine
 10
-115.7152507276
 20
253.1714893617
 30
0.0
 11
-115.7152507276
 21
-14.8285106383
 31
0.0
  0
LINE
  5
A5
330
1F
100
AcDbEntity
  8
0
  6
Continuous
 62
     7
370
    25
100
AcDbLine
 10
-134.7152507276
 20
231.6714893617
 30
0.0
 11
-134.7152507276
 21
6.6714893617
 31
0.0
  0
LINE
  5
A6
330
1F
100
AcDbEntity
  8
0
  6
Continuous
 62
     7
370
    25
100
AcDbLine
 10
-263.7152507276
 20
231.6714893617
 30
0.0
 11
-263.7152507276
 21
6.6714893617
 31
0.0
  0
LINE
  5
A7
330
1F
100
AcDbEntity
  8
0
  6
Continuous
 62
     7
370
    25
100
AcDbLine
 10
358.7158881206
 20
-14.8285106383
 30
0.0
 11
390.7158881206
 21
-14.8285106383
 31
0.0
  0
LINE
  5
A8
330
1F
100
AcDbEntity
  8
0
  6
Continuous
 62
     7
370
    25
100
AcDbLine
 10
390.7158881206
 20
253.1714893617
 30
0.0
 11
358.7158881206
 21
253.1714893617
 31
0.0
  0
LINE
  5
A9
330
1F
100
AcDbEntity
  8
0
  6
Continuous
 62
     7
370
    25
100
AcDbLine
 10
390.7158881206
 20
0.1714893617
 30
0.0
 11
409.7158881206
 21
6.6714893617
 31
0.0
  0
LINE
  5
AA
330
1F
100
AcDbEntity
  8
0
  6
Continuous
 62
     7
370
    25
100
AcDbLine
 10
409.7158881206
 20
231.6714893617
 30
0.0
 11
390.7158881206
 21
238.1714893617
 31
0.0
  0
LINE
  5
AB
330
1F
100
AcDbEntity
  8
0
  6
Continuous
 62
     7
370
    25
100
AcDbLine
 10
409.7158881206
 20
6.6714893617
 30
0.0
 11
538.7158881206
 21
6.6714893617
 31
0.0
  0
LINE
  5
AC
330
1F
100
AcDbEntity
  8
0
  6
Continuous
 62
     7
370
    25
100
AcDbLine
 10
538.7158881206
 20
231.6714893617
 30
0.0
 11
409.7158881206
 21
231.6714893617
 31
0.0
  0
LINE
  5
AD
330
1F
100
AcDbEntity
  8
0
  6
Continuous
 62
     7
370
    25
100
AcDbLine
 10
358.7158881206
 20
119.1714893617
 30
0.0
 11
358.7158881206
 21
253.1714893617
 31
0.0
  0
LINE
  5
AE
330
1F
100
AcDbEntity
  8
0
  6
Continuous
 62
     7
370
    25
100
AcDbLine
 10
358.7158881206
 20
-14.8285106383
 30
0.0
 11
358.7158881206
 21
119.1714893617
 31
0.0
  0
LINE
  5
AF
330
1F
100
AcDbEntity
  8
0
  6
Continuous
 62
     7
370
    25
100
AcDbLine
 10
390.7158881206
 20
119.1714893617
 30
0.0
 11
390.7158881206
 21
253.1714893617
 31
0.0
  0
LINE
  5
B0
330
1F
100
AcDbEntity
  8
0
  6
Continuous
 62
     7
370
    25
100
AcDbLine
 10
390.7158881206
 20
-14.8285106383
 30
0.0
 11
390.7158881206
 21
119.1714893617
 31
0.0
  0
LINE
  5
B1
330
1F
100
AcDbEntity
  8
0
  6
Continuous
 62
     7
370
    25
100
AcDbLine
 10
409.7158881206
 20
119.1714893617
 30
0.0
 11
409.7158881206
 21
231.6714893617
 31
0.0
  0
LINE
  5
B2
330
1F
100
AcDbEntity
  8
0
  6
Continuous
 62
     7
370
    25
100
AcDbLine
 10
409.7158881206
 20
6.6714893617
 30
0.0
 11
409.7158881206
 21
119.1714893617
 31
0.0
  0
LINE
  5
B3
330
1F
100
AcDbEntity
  8
0
  6
Continuous
 62
     7
370
    25
100
AcDbLine
 10
538.7158881206
 20
119.1714893617
 30
0.0
 11
538.7158881206
 21
231.6714893617
 31
0.0
  0
LINE
  5
B4
330
1F
100
AcDbEntity
  8
0
  6
Continuous
 62
     7
370
    25
100
AcDbLine
 10
538.7158881206
 20
6.6714893617
 30
0.0
 11
538.7158881206
 21
119.1714893617
 31
0.0
  0
LINE
  5
B5
330
1F
100
AcDbEntity
  8
0
  6
Continuous
 62
     7
370
    25
100
AcDbLine
 10
8.9934680851
 20
-78.1768121575
 30
0.0
 11
8.9934680851
 21
-110.1768121575
 31
0.0
  0
LINE
  5
B6
330
1F
100
AcDbEntity
  8
0
  6
Continuous
 62
     7
370
    25
100
AcDbLine
 10
276.9934680851
 20
-110.1768121575
 30
0.0
 11
276.9934680851
 21
-78.1768121575
 31
0.0
  0
LINE
  5
B7
330
1F
100
AcDbEntity
  8
0
  6
Continuous
 62
     7
370
    25
100
AcDbLine
 10
23.9934680851
 20
-110.1768121575
 30
0.0
 11
30.4934680851
 21
-129.1768121575
 31
0.0
  0
LINE
  5
B8
330
1F
100
AcDbEntity
  8
0
  6
Continuous
 62
     7
370
    25
100
AcDbLine
 10
255.4934680851
 20
-129.1768121575
 30
0.0
 11
261.9934680851
 21
-110.1768121575
 31
0.0
  0
LINE
  5
B9
330
1F
100
AcDbEntity
  8
0
  6
Continuous
 62
     7
370
    25
100
AcDbLine
 10
30.4934680851
 20
-129.1768121575
 30
0.0
 11
30.4934680851
 21
-258.1768121575
 31
0.0
  0
LINE
  5
BA
330
1F
100
AcDbEntity
  8
0
  6
Continuous
 62
     7
370
    25
100
AcDbLine
 10
255.4934680851
 20
-258.1768121575
 30
0.0
 11
255.4934680851
 21
-129.1768121575
 31
0.0
  0
LINE
  5
BB
330
1F
100
AcDbEntity
  8
0
  6
Continuous
 62
     7
370
    25
100
AcDbLine
 10
8.9934680851
 20
-78.1768121575
 30
0.0
 11
276.9934680851
 21
-78.1768121575
 31
0.0
  0
LINE
  5
BC
330
1F
100
AcDbEntity
  8
0
  6
Continuous
 62
     7
370
    25
100
AcDbLine
 10
8.9934680851
 20
-110.1768121575
 30
0.0
 11
276.9934680851
 21
-110.1768121575
 31
0.0
  0
LINE
  5
BD
330
1F
100
AcDbEntity
  8
0
  6
Continuous
 62
     7
370
    25
100
AcDbLine
 10
30.4934680851
 20
-129.1768121575
 30
0.0
 11
255.4934680851
 21
-129.1768121575
 31
0.0
  0
LINE
  5
BE
330
1F
100
AcDbEntity
  8
0
  6
Continuous
 62
     7
370
    25
100
AcDbLine
 10
30.4934680851
 20
-258.1768121575
 30
0.0
 11
255.4934680851
 21
-258.1768121575
 31
0.0
  0
LINE
  5
BF
330
1F
100
AcDbEntity
  8
0
  6
Continuous
 62
     7
370
    25
100
AcDbLine
 10
393.1589732815
 20
-98.1853028478
 30
0.0
 11
332.9552681095
 21
-156.9459647255
 31
0.0
  0
LINE
  5
C0
330
1F
100
AcDbEntity
  8
0
  6
Continuous
 62
     7
370
    25
100
AcDbLine
 10
490.1128538059
 20
-317.9630236295
 30
0.0
 11
550.3165589778
 21
-259.2023617517
 31
0.0
  0
LINE
  5
C1
330
1F
100
AcDbEntity
  8
0
  6
Continuous
 62
     7
370
    25
100
AcDbLine
 10
401.9431577059
 20
-59.5682689833
 30
0.0
 11
387.0089052601
 21
-74.144557201
 31
0.0
  0
LINE
  5
C2
330
1F
100
AcDbEntity
  8
0
  6
Continuous
 62
     7
370
    25
100
AcDbLine
 10
574.2010517785
 20
-265.9337651399
 30
0.0
 11
589.1353042243
 21
-251.3574769222
 31
0.0
  0
LWPOLYLINE
  5
C3
330
1F
100
AcDbEntity
  8
0
  6
Continuous
 62
     7
370
    25
100
AcDbPolyline
 90
      125
 70
   128
 43
0.0
 10
312.037022269
 20
-210.4133310256
 10
312.1647260046
 20
-205.5638718892
 10
312.5475093979
 20
-200.7962755229
 10
313.1843898494
 20
-196.1227802781
 10
314.0737324961
 20
-191.5553829502
 10
315.2132544082
 20
-187.1058079824
 10
316.6000304492
 20
-182.78547737
 10
318.230500785
 20
-178.6054813397
 10
320.1004800216
 20
-174.5765498813
 10
322.2051679491
 20
-170.7090252042
 10
324.5391618638
 20
-167.0128351886
 10
327.0964704368
 20
-163.4974679013
 10
329.8705290936
 20
-160.1719472398
 10
332.8542168655
 20
-157.0448097679
 10
336.0398746687
 20
-154.1240828027
 10
339.4193249654
 20
-151.4172638083
 10
342.9838927552
 20
-148.9313011503
 10
346.7244278435
 20
-146.6725762592
 10
350.6313283305
 20
-144.6468872493
 10
354.6945652588
 20
-142.8594340355
 10
358.9037083572
 20
-141.3148049843
 10
363.247952816
 20
-140.0169651364
 10
367.7161470219
 20
-138.9692460281
 10
372.2968211843
 20
-138.1743371393
 10
376.9782167786
 20
-137.6342789898
 10
381.7483167292
 20
-137.350457901
 10
386.5948762581
 20
-137.3236024376
 10
391.5054543164
 20
-137.5537815373
 10
396.4674455208
 20
-138.0404043335
 10
401.4681125108
 20
-138.7822216725
 10
406.4946186462
 20
-139.7773293198
 10
411.5340609577
 20
-141.0231728485
 10
416.5735032692
 20
-142.516554196
 10
421.6000094045
 20
-144.2536398738
 10
426.6006763946
 20
-146.2299708079
 10
431.5626675989
 20
-148.4404737852
 10
436.4732456572
 20
-150.8794744761
 10
441.3198051861
 20
-153.540712001
 10
446.0899051368
 20
-156.4173550012
 10
450.771300731
 20
-159.5020191754
 10
455.3519748935
 20
-162.786786235
 10
459.8201690993
 20
-166.2632242299
 10
464.1644135581
 20
-169.9224091938
 10
468.3735566566
 20
-173.7549480513
 10
472.4367935848
 20
-177.75100273
 10
476.3436940718
 20
-181.9003154151
 10
480.0842291602
 20
-186.1922348803
 10
483.6487969499
 20
-190.6157438299
 10
487.0282472466
 20
-195.1594871799
 10
490.2139050499
 20
-199.8118012062
 10
493.1975928218
 20
-204.5607434855
 10
495.9716514786
 20
-209.3941235511
 10
498.5289600516
 20
-214.2995341856
 10
500.8629539662
 20
-219.2643832703
 10
502.9676418937
 20
-224.2759261089
 10
504.8376211303
 20
-229.3212981426
 10
506.4680914661
 20
-234.387547974
 10
507.8548675072
 20
-239.4616706123
 10
508.9943894192
 20
-244.5306408574
 10
509.8837320659
 20
-249.5814467355
 10
510.5206125174
 20
-254.6011229003
 10
510.9033959107
 20
-259.5767839151
 10
511.0310996464
 20
-264.4956573294
 10
510.9033959107
 20
-269.3451164658
 10
510.5206125174
 20
-274.1127128321
 10
509.8837320659
 20
-278.7862080769
 10
508.9943894192
 20
-283.3536054048
 10
507.8548675072
 20
-287.8031803726
 10
506.4680914661
 20
-292.123510985
 10
504.8376211303
 20
-296.3035070153
 10
502.9676418937
 20
-300.3324384737
 10
500.8629539662
 20
-304.1999631509
 10
498.5289600516
 20
-307.8961531664
 10
495.9716514786
 20
-311.4115204537
 10
493.1975928218
 20
-314.7370411152
 10
490.2139050499
 20
-317.8641785871
 10
487.0282472466
 20
-320.7849055523
 10
483.6487969499
 20
-323.4917245467
 10
480.0842291602
 20
-325.9776872047
 10
476.3436940718
 20
-328.2364120959
 10
472.4367935848
 20
-330.2621011057
 10
468.3735566566
 20
-332.0495543195
 10
464.1644135581
 20
-333.5941833707
 10
459.8201690993
 20
-334.8920232186
 10
455.3519748935
 20
-335.9397423269
 10
450.771300731
 20
-336.7346512157
 10
446.0899051368
 20
-337.2747093652
 10
441.3198051861
 20
-337.558530454
 10
436.4732456572
 20
-337.5853859174
 10
431.5626675989
 20
-337.3552068178
 10
426.6006763946
 20
-336.8685840216
 10
421.6000094045
 20
-336.1267666825
 10
416.5735032692
 20
-335.1316590352
 10
411.5340609577
 20
-333.8858155065
 10
406.4946186462
 20
-332.392434159
 10
401.4681125108
 20
-330.6553484812
 10
396.4674455208
 20
-328.6790175471
 10
391.5054543164
 20
-326.4685145698
 10
386.5948762581
 20
-324.0295138789
 10
381.7483167292
 20
-321.368276354
 10
376.9782167786
 20
-318.4916333538
 10
372.2968211843
 20
-315.4069691796
 10
367.7161470219
 20
-312.12220212
 10
363.247952816
 20
-308.6457641251
 10
358.9037083572
 20
-304.9865791612
 10
354.6945652588
 20
-301.1540403038
 10
350.6313283305
 20
-297.157985625
 10
346.7244278435
 20
-293.0086729399
 10
342.9838927552
 20
-288.7167534747
 10
339.4193249654
 20
-284.2932445251
 10
336.0398746687
 20
-279.7495011752
 10
332.8542168655
 20
-275.0971871488
 10
329.8705290936
 20
-270.3482448695
 10
327.0964704368
 20
-265.5148648039
 10
324.5391618638
 20
-260.6094541694
 10
322.2051679491
 20
-255.6446050847
 10
320.1004800216
 20
-250.6330622461
 10
318.230500785
 20
-245.5876902124
 10
316.6000304492
 20
-240.521440381
 10
315.2132544082
 20
-235.4473177427
 10
314.0737324961
 20
-230.3783474976
 10
313.1843898494
 20
-225.3275416195
 10
312.5475093979
 20
-220.3078654547
 10
312.1647260046
 20
-215.3322044399
 10
312.037022269
 20
-210.4133310256
  0
LWPOLYLINE
  5
C4
330
1F
100
AcDbEntity
  8
0
  6
Continuous
 62
     7
370
    25
100
AcDbPolyline
 90
      113
 70
   128
 43
0.0
 10
330.1675937633
 20
-215.3408318666
 10
330.2955982676
 20
-210.9539393885
 10
330.6792090308
 20
-206.6504274601
 10
331.3172190716
 20
-202.443836522
 10
332.2076209743
 20
-198.3474020656
 10
333.3476132052
 20
-194.3740129892
 10
334.7336089269
 20
-190.5361710448
 10
336.3612472841
 20
-186.8459515031
 10
338.2254071244
 20
-183.3149651601
 10
340.3202231112
 20
-179.954321805
 10
342.6391041785
 20
-176.7745952652
 10
345.1747542685
 20
-173.7857901368
 10
347.9191952879
 20
-170.9973103065
 10
350.86379221
 20
-168.4179293634
 10
353.9992802434
 20
-166.0557629943
 10
357.3157939827
 20
-163.9182434485
 10
360.8028984487
 20
-162.0120961532
 10
364.4496219208
 20
-160.3433185532
 10
368.2444904576
 20
-158.91716124
 10
372.1755639987
 20
-157.7381114323
 10
376.2304739326
 20
-156.8098788569
 10
380.3964620123
 20
-156.135384077
 10
384.6604204981
 20
-155.7167493026
 10
389.0089333991
 20
-155.5552917136
 10
393.4283186849
 20
-155.6515193154
 10
397.9046713343
 20
-156.0051293403
 10
402.4239070859
 20
-156.6150092003
 10
406.971806752
 20
-157.4792399878
 10
411.5340609577
 20
-158.5951025129
 10
416.0963151634
 20
-159.9590858594
 10
420.6442148295
 20
-161.566898431
 10
425.163450581
 20
-163.4134814545
 10
429.6398032305
 20
-165.4930248966
 10
434.0591885162
 20
-167.7989857443
 10
438.4077014172
 20
-170.3241085915
 10
442.671659903
 20
-173.0604484676
 10
446.8376479827
 20
-175.999395835
 10
450.8925579166
 20
-179.131703678
 10
454.8236314578
 20
-182.4475165973
 10
458.6184999946
 20
-185.9364018187
 10
462.2652234666
 20
-189.5873820185
 10
465.7523279327
 20
-193.3889698622
 10
469.068841672
 20
-197.3292041481
 10
472.2043297053
 20
-201.3956874414
 10
475.1489266274
 20
-205.5756250812
 10
477.8933676468
 20
-209.8558654372
 10
480.4290177368
 20
-214.2229412897
 10
482.7478988041
 20
-218.6631122024
 10
484.842714791
 20
-223.162407755
 10
486.7068746313
 20
-227.706671499
 10
488.3345129885
 20
-232.2816054995
 10
489.7205087102
 20
-236.8728153216
 10
490.860500941
 20
-241.4658553206
 10
491.7509028438
 20
-246.0462740933
 10
492.3889128845
 20
-250.5996599478
 10
492.7725236478
 20
-255.1116862475
 10
492.900528152
 20
-259.5681564884
 10
492.7725236478
 20
-263.9550489665
 10
492.3889128845
 20
-268.2585608949
 10
491.7509028438
 20
-272.465151833
 10
490.860500941
 20
-276.5615862894
 10
489.7205087102
 20
-280.5349753658
 10
488.3345129885
 20
-284.3728173102
 10
486.7068746313
 20
-288.0630368519
 10
484.842714791
 20
-291.5940231949
 10
482.7478988041
 20
-294.95466655
 10
480.4290177368
 20
-298.1343930898
 10
477.8933676468
 20
-301.1231982182
 10
475.1489266274
 20
-303.9116780485
 10
472.2043297053
 20
-306.4910589916
 10
469.068841672
 20
-308.8532253607
 10
465.7523279327
 20
-310.9907449065
 10
462.2652234666
 20
-312.8968922018
 10
458.6184999946
 20
-314.5656698018
 10
454.8236314578
 20
-315.991827115
 10
450.8925579166
 20
-317.1708769227
 10
446.8376479827
 20
-318.0991094981
 10
442.671659903
 20
-318.773604278
 10
438.4077014172
 20
-319.1922390524
 10
434.0591885162
 20
-319.3536966414
 10
429.6398032305
 20
-319.2574690396
 10
425.163450581
 20
-318.9038590147
 10
420.6442148295
 20
-318.2939791547
 10
416.0963151634
 20
-317.4297483673
 10
411.5340609577
 20
-316.3138858421
 10
406.971806752
 20
-314.9499024956
 10
402.4239070859
 20
-313.342089924
 10
397.9046713343
 20
-311.4955069005
 10
393.4283186849
 20
-309.4159634584
 10
389.0089333991
 20
-307.1100026107
 10
384.6604204981
 20
-304.5848797635
 10
380.3964620123
 20
-301.8485398874
 10
376.2304739326
 20
-298.90959252
 10
372.1755639987
 20
-295.777284677
 10
368.2444904576
 20
-292.4614717577
 10
364.4496219208
 20
-288.9725865363
 10
360.8028984487
 20
-285.3216063366
 10
357.3157939827
 20
-281.5200184928
 10
353.9992802434
 20
-277.5797842069
 10
350.86379221
 20
-273.5133009136
 10
347.9191952879
 20
-269.3333632738
 10
345.1747542685
 20
-265.0531229178
 10
342.6391041785
 20
-260.6860470653
 10
340.3202231112
 20
-256.2458761526
 10
338.2254071244
 20
-251.7465806
 10
336.3612472841
 20
-247.202316856
 10
334.7336089269
 20
-242.6273828555
 10
333.3476132052
 20
-238.0361730334
 10
332.2076209743
 20
-233.4431330345
 10
331.3172190716
 20
-228.8627142617
 10
330.6792090308
 20
-224.3093284072
 10
330.2955982676
 20
-219.7973021075
 10
330.1675937633
 20
-215.3408318666
  0
LWPOLYLINE
  5
C5
330
1F
100
AcDbEntity
  8
0
  6
Continuous
 62
     7
370
    25
100
AcDbPolyline
 90
       64
 70
   128
 43
0.0
 10
393.1589732815
 20
-98.1853028478
 10
396.2435798407
 20
-95.3634209249
 10
399.6230301374
 20
-92.6566019305
 10
403.1875979271
 20
-90.1706392725
 10
406.9281330155
 20
-87.9119143814
 10
410.8350335025
 20
-85.8862253716
 10
414.8982704307
 20
-84.0987721577
 10
419.1074135292
 20
-82.5541431065
 10
423.451657988
 20
-81.2563032586
 10
427.9198521938
 20
-80.2085841503
 10
432.5005263563
 20
-79.4136752616
 10
437.1819219506
 20
-78.873617112
 10
441.9520219012
 20
-78.5897960232
 10
446.7985814301
 20
-78.5629405599
 10
451.7091594884
 20
-78.7931196595
 10
456.6711506927
 20
-79.2797424557
 10
461.6718176828
 20
-80.0215597947
 10
466.6983238182
 20
-81.0166674421
 10
471.7377661297
 20
-82.2625109708
 10
476.7772084411
 20
-83.7558923183
 10
481.8037145765
 20
-85.4929779961
 10
486.8043815666
 20
-87.4693089302
 10
491.7663727709
 20
-89.6798119074
 10
496.6769508292
 20
-92.1188125984
 10
501.5235103581
 20
-94.7800501232
 10
506.2936103087
 20
-97.6566931234
 10
510.975005903
 20
-100.7413572977
 10
515.5556800655
 20
-104.0261243572
 10
520.0238742713
 20
-107.5025623522
 10
524.3681187301
 20
-111.161747316
 10
528.5772618286
 20
-114.9942861735
 10
532.6404987568
 20
-118.9903408523
 10
536.5473992438
 20
-123.1396535374
 10
540.2879343322
 20
-127.4315730025
 10
543.8525021219
 20
-131.8550819521
 10
547.2319524186
 20
-136.3988253021
 10
550.4176102218
 20
-141.0511393284
 10
553.4012979937
 20
-145.8000816077
 10
556.1753566506
 20
-150.6334616733
 10
558.7326652235
 20
-155.5388723078
 10
561.0666591382
 20
-160.5037213926
 10
563.1713470657
 20
-165.5152642311
 10
565.0413263023
 20
-170.5606362649
 10
566.6717966381
 20
-175.6268860962
 10
568.0585726791
 20
-180.7010087345
 10
569.1980945912
 20
-185.7699789797
 10
570.0874372379
 20
-190.8207848578
 10
570.7243176894
 20
-195.8404610226
 10
571.1071010827
 20
-200.8161220374
 10
571.2348048184
 20
-205.7349954517
 10
571.1071010827
 20
-210.584454588
 10
570.7243176894
 20
-215.3520509543
 10
570.0874372379
 20
-220.0255461991
 10
569.1980945912
 20
-224.5929435271
 10
568.0585726791
 20
-229.0425184948
 10
566.6717966381
 20
-233.3628491072
 10
565.0413263023
 20
-237.5428451375
 10
563.1713470657
 20
-241.5717765959
 10
561.0666591382
 20
-245.4393012731
 10
558.7326652235
 20
-249.1354912887
 10
556.1753566506
 20
-252.6508585759
 10
553.4012979937
 20
-255.9763792374
 10
550.4176102218
 20
-259.1035167093
 10
550.3165589778
 20
-259.2023617517
  0
LWPOLYLINE
  5
C6
330
1F
100
AcDbEntity
  8
0
  6
Continuous
 62
     7
370
    25
100
AcDbPolyline
 90
       31
 70
   128
 43
0.0
 10
492.5138892593
 20
-251.7844784674
 10
489.2625643227
 20
-251.3203664566
 10
484.7146646566
 20
-250.4561356691
 10
480.1524104509
 20
-249.340273144
 10
475.5901562452
 20
-247.9762897975
 10
471.0422565791
 20
-246.3684772259
 10
466.5230208275
 20
-244.5218942023
 10
462.0466681781
 20
-242.4423507602
 10
457.6272828923
 20
-240.1363899126
 10
453.2787699913
 20
-237.6112670654
 10
449.0148115055
 20
-234.8749271893
 10
444.8488234258
 20
-231.9359798218
 10
440.793913492
 20
-228.8036719788
 10
436.8628399508
 20
-225.4878590596
 10
433.067971414
 20
-221.9989738382
 10
429.421247942
 20
-218.3479936384
 10
425.9341434759
 20
-214.5464057947
 10
422.6176297366
 20
-210.6061715087
 10
419.4821417032
 20
-206.5396882154
 10
416.5375447812
 20
-202.3597505757
 10
413.7931037617
 20
-198.0795102197
 10
411.2574536717
 20
-193.7124343672
 10
408.9385726045
 20
-189.2722634545
 10
406.8437566176
 20
-184.7729679019
 10
404.9795967773
 20
-180.2287041579
 10
403.3519584201
 20
-175.6537701574
 10
401.9659626984
 20
-171.0625603353
 10
400.8259704675
 20
-166.4695203363
 10
399.9355685648
 20
-161.8891015636
 10
399.297558524
 20
-157.3357157091
 10
399.1725821492
 20
-156.1508971895
  0
LWPOLYLINE
  5
C7
330
1F
100
AcDbEntity
  8
0
  6
Continuous
 62
     7
370
    25
100
AcDbPolyline
 90
       80
 70
   128
 43
0.0
 10
380.9813869974
 20
-110.0710003822
 10
381.5114611202
 20
-108.743921473
 10
383.3705782241
 20
-104.5781114069
 10
385.4639415151
 20
-100.5700027434
 10
387.7865078975
 20
-96.7292513674
 10
390.3326821056
 20
-93.0651099852
 10
393.0963301827
 20
-89.5864058345
 10
396.0707942585
 20
-86.3015194183
 10
399.2489085885
 20
-83.2183643155
 10
402.6230168169
 20
-80.344368117
 10
406.1849904215
 20
-77.6864545313
 10
409.9262482958
 20
-75.2510267051
 10
413.8377774219
 20
-73.0439517972
 10
417.9101545836
 20
-71.0705468444
 10
422.1335690676
 20
-69.3355659523
 10
426.4978462985
 20
-67.8431888415
 10
430.99247235
 20
-66.5970107795
 10
435.6066192745
 20
-65.6000339182
 10
440.3291711878
 20
-64.8546600622
 10
445.1487510488
 20
-64.3626848825
 10
450.0537480672
 20
-64.1252935903
 10
455.0323456758
 20
-64.1430580821
 10
460.0725499969
 20
-64.4159355616
 10
465.1622187367
 20
-64.9432686431
 10
470.2890904374
 20
-65.723786935
 10
475.440814016
 20
-66.7556101004
 10
480.6049785193
 20
-68.0362523869
 10
485.7691430226
 20
-69.5626286151
 10
490.9208666013
 20
-71.3310616109
 10
496.047738302
 20
-73.3372910643
 10
501.1374070418
 20
-75.5764837929
 10
506.1776113628
 20
-78.0432453853
 10
511.1562089714
 20
-80.7316331967
 10
516.0612059899
 20
-83.6351706654
 10
520.8807858508
 20
-86.7468629153
 10
525.6033377641
 20
-90.0592136072
 10
530.2174846886
 20
-93.5642429983
 10
534.7121107402
 20
-97.2535071656
 10
539.076387971
 20
-101.1181183487
 10
543.299802455
 20
-105.1487663607
 10
547.3721796167
 20
-109.3357410176
 10
551.2837087429
 20
-113.6689555306
 10
555.0249666172
 20
-118.1379708064
 10
558.5869402217
 20
-122.7320205958
 10
561.9610484501
 20
-127.4400374305
 10
565.1391627801
 20
-132.2506792855
 10
568.1136268559
 20
-137.1523569033
 10
570.877274933
 20
-142.1332617131
 10
573.4234491411
 20
-147.1813942789
 10
575.7460155236
 20
-152.2845932073
 10
577.8393788145
 20
-157.430564445
 10
579.6984959184
 20
-162.6069108966
 10
581.3188880593
 20
-167.8011622902
 10
582.6966515706
 20
-173.000805219
 10
583.8284672994
 20
-178.1933132879
 10
584.7116086024
 20
-183.3661772902
 10
585.3439479149
 20
-188.5069353433
 10
585.723961876
 20
-193.6032029108
 10
585.8507349989
 20
-198.6427026379
 10
585.723961876
 20
-203.6132939281
 10
585.3439479149
 20
-208.5030021918
 10
584.7116086024
 20
-213.3000476935
 10
583.8284672994
 20
-217.9928739303
 10
582.6966515706
 20
-222.5701754728
 10
581.3188880593
 20
-227.0209252007
 10
579.6984959184
 20
-231.334400868
 10
577.8393788145
 20
-235.500210934
 10
575.7460155236
 20
-239.5083195975
 10
573.4234491411
 20
-243.3490709736
 10
570.877274933
 20
-247.0132123557
 10
568.1136268559
 20
-250.4919165064
 10
565.1391627801
 20
-253.7768029227
 10
561.9610484501
 20
-256.8599580254
 10
558.5869402217
 20
-259.7339542239
 10
555.0249666172
 20
-262.3918678096
 10
551.2837087429
 20
-264.8272956359
 10
547.3721796167
 20
-267.0343705438
 10
543.299802455
 20
-269.0077754965
 10
539.076387971
 20
-270.7427563887
 10
538.1389726938
 20
-271.0880592862
  0
LWPOLYLINE
  5
C8
330
1F
100
AcDbEntity
  8
0
  6
Continuous
 62
     7
370
    25
100
AcDbPolyline
 90
       69
 70
   128
 43
0.0
 10
401.9431577059
 20
-59.5682689833
 10
404.7537502395
 20
-56.9584708662
 10
408.3962689891
 20
-53.9347022223
 10
412.2275199897
 20
-51.1308209882
 10
416.2392056047
 20
-48.5528997464
 10
420.4226374163
 20
-46.2065217001
 10
424.7687550428
 20
-44.0967685817
 10
429.2681457611
 20
-42.2282096467
 10
433.911064893
 20
-40.6048917777
 10
438.6874569094
 20
-39.2303307196
 10
443.5869772088
 20
-38.1075034658
 10
448.5990145213
 20
-37.2388418099
 10
453.7127138901
 20
-36.6262270796
 10
458.9170001811
 20
-36.2709860621
 10
464.200602069
 20
-36.1738881304
 10
469.5520764487
 20
-36.3351435768
 10
474.9598332183
 20
-36.7544031581
 10
480.412160381
 20
-37.4307588513
 10
485.89724941
 20
-38.3627458206
 10
491.4032208241
 20
-39.5483455897
 10
496.9181499151
 20
-40.9849904136
 10
502.4300925747
 20
-42.6695688395
 10
507.9271111625
 20
-44.5984324456
 10
513.3973003603
 20
-46.7674037429
 10
518.8288129564
 20
-49.1717852225
 10
524.2098855039
 20
-51.8063695296
 10
529.528863798
 20
-54.6654507411
 10
534.7742281161
 20
-57.7428367239
 10
539.9346181671
 20
-61.0318625451
 10
544.9988576953
 20
-64.5254049073
 10
549.9559786855
 20
-68.2158975755
 10
554.7952451175
 20
-72.0953477646
 10
559.5061762178
 20
-76.1553534491
 10
564.0785691586
 20
-80.387121561
 10
568.502521155
 20
-84.7814870327
 10
572.7684509122
 20
-89.3289326471
 10
576.8671193761
 20
-94.0196096498
 10
580.7896497436
 20
-98.8433590788
 10
584.5275466873
 20
-103.789733767
 10
588.0727147548
 20
-108.8480209682
 10
591.4174759015
 20
-114.0072655588
 10
594.5545861195
 20
-119.2562937637
 10
597.4772511268
 20
-124.5837373568
 10
600.1791410816
 20
-129.9780582816
 10
602.654404292
 20
-135.42757364
 10
604.8976798891
 20
-140.9204809954
 10
606.9041094375
 20
-146.4448839334
 10
608.6693474574
 20
-151.9888178276
 10
610.1895708365
 20
-157.5402757516
 10
611.4614871095
 20
-163.0872344837
 10
612.4823415889
 20
-168.6176805466
 10
613.2499233312
 20
-174.1196362254
 10
613.7625699253
 20
-179.5811855094
 10
614.0191710929
 20
-184.990499899
 10
614.0191710929
 20
-190.3358640238
 10
613.7625699253
 20
-195.6057010154
 10
613.2499233312
 20
-200.7885975802
 10
612.4823415889
 20
-205.8733287185
 10
611.4614871095
 20
-210.8488820349
 10
610.1895708365
 20
-215.7044815887
 10
608.6693474574
 20
-220.4296112327
 10
606.9041094375
 20
-225.0140373882
 10
604.8976798891
 20
-229.447831209
 10
602.654404292
 20
-233.7213900849
 10
600.1791410816
 20
-237.8254584391
 10
597.4772511268
 20
-241.7511477734
 10
594.5545861195
 20
-245.4899559189
 10
591.4174759015
 20
-249.0337854496
 10
589.1353042243
 20
-251.3574769222
  0
LWPOLYLINE
  5
C9
330
1F
100
AcDbEntity
  8
0
  6
Continuous
 62
     7
370
    25
100
AcDbPolyline
 90
       95
 70
   128
 43
0.0
 10
362.5313518187
 20
-128.0788003286
 10
362.6060135956
 20
-127.2933110094
 10
363.2463011273
 20
-122.158106756
 10
364.1407614212
 20
-117.1266022045
 10
365.2874572753
 20
-112.2096944732
 10
366.683905202
 20
-107.4180324895
 10
368.3270808058
 20
-102.7619939263
 10
370.2134253344
 20
-98.2516627262
 10
372.3388533855
 20
-93.8968072623
 10
374.6987617552
 20
-89.7068591819
 10
377.2880394076
 20
-85.6908929793
 10
380.1010785438
 20
-81.8576063433
 10
383.1317867474
 20
-78.215301319
 10
386.3736001794
 20
-74.7718663281
 10
389.8194977937
 20
-71.5347590839
 10
393.4620165434
 20
-68.5109904401
 10
397.293267544
 20
-65.707109206
 10
401.3049531589
 20
-63.1291879641
 10
405.4883849705
 20
-60.7828099178
 10
409.834502597
 20
-58.6730567994
 10
414.3338933154
 20
-56.8044978644
 10
418.9768124472
 20
-55.1811799954
 10
423.7532044636
 20
-53.8066189374
 10
428.6527247631
 20
-52.6837916835
 10
433.6647620755
 20
-51.8151300276
 10
438.7784614443
 20
-51.2025152974
 10
443.9827477353
 20
-50.8472742799
 10
449.2663496232
 20
-50.7501763481
 10
454.6178240029
 20
-50.9114317946
 10
460.0255807726
 20
-51.3306913758
 10
465.4779079352
 20
-52.007047069
 10
470.9629969642
 20
-52.9390340383
 10
476.4689683783
 20
-54.1246338074
 10
481.9838974693
 20
-55.5612786313
 10
487.4958401289
 20
-57.2458570572
 10
492.9928587168
 20
-59.1747206633
 10
498.4630479146
 20
-61.3436919606
 10
503.8945605106
 20
-63.7480734402
 10
509.2756330582
 20
-66.3826577473
 10
514.5946113523
 20
-69.2417389588
 10
519.8399756704
 20
-72.3191249416
 10
525.0003657214
 20
-75.6081507628
 10
530.0646052495
 20
-79.101693125
 10
535.0217262397
 20
-82.7921857933
 10
539.8609926717
 20
-86.6716359823
 10
544.571923772
 20
-90.7316416669
 10
549.1443167128
 20
-94.9634097787
 10
553.5682687093
 20
-99.3577752504
 10
557.8341984664
 20
-103.9052208649
 10
561.9328669303
 20
-108.5958978676
 10
565.8553972978
 20
-113.4196472965
 10
569.5932942415
 20
-118.3660219847
 10
573.138462309
 20
-123.4243091859
 10
576.4832234557
 20
-128.5835537765
 10
579.6203336738
 20
-133.8325819815
 10
582.542998681
 20
-139.1600255746
 10
585.2448886359
 20
-144.5543464993
 10
587.7201518463
 20
-150.0038618578
 10
589.9634274434
 20
-155.4967692131
 10
591.9698569917
 20
-161.0211721512
 10
593.7350950117
 20
-166.5651060454
 10
595.2553183908
 20
-172.1165639694
 10
596.5272346637
 20
-177.6635227015
 10
597.5480891431
 20
-183.1939687643
 10
598.3156708854
 20
-188.6959244431
 10
598.8283174795
 20
-194.1574737272
 10
599.0849186471
 20
-199.5667881168
 10
599.0849186471
 20
-204.9121522416
 10
598.8283174795
 20
-210.1819892331
 10
598.3156708854
 20
-215.3648857979
 10
597.5480891431
 20
-220.4496169362
 10
596.5272346637
 20
-225.4251702526
 10
595.2553183908
 20
-230.2807698065
 10
593.7350950117
 20
-235.0058994505
 10
591.9698569917
 20
-239.590325606
 10
589.9634274434
 20
-244.0241194267
 10
587.7201518463
 20
-248.2976783027
 10
585.2448886359
 20
-252.4017466569
 10
582.542998681
 20
-256.3274359912
 10
579.6203336738
 20
-260.0662441366
 10
576.4832234557
 20
-263.6100736673
 10
573.138462309
 20
-266.9512494377
 10
569.5932942415
 20
-270.0825352049
 10
565.8553972978
 20
-272.9971493014
 10
561.9328669303
 20
-275.6887793219
 10
557.8341984664
 20
-278.1515957953
 10
553.5682687093
 20
-280.3802648094
 10
549.1443167128
 20
-282.3699595635
 10
544.571923772
 20
-284.1163708218
 10
539.8609926717
 20
-285.6157162463
 10
535.0217262397
 20
-286.8647485888
 10
530.0646052495
 20
-287.8607627233
 10
525.0003657214
 20
-288.601601505
 10
519.8399756704
 20
-289.0856604421
 10
519.6889375151
 20
-289.0958592325
  0
LWPOLYLINE
  5
CA
330
1F
100
AcDbEntity
  8
0
  6
Continuous
 62
     7
370
    25
100
AcDbPolyline
 90
       25
 70
   128
 43
0.0
 10
491.2562023581
 20
-243.3475372514
 10
487.0524348117
 20
-241.9214643239
 10
482.2307200632
 20
-240.0532303668
 10
477.4460985215
 20
-237.9492279117
 10
472.711905785
 20
-235.6153211908
 10
468.0413368981
 20
-233.0580152208
 10
463.4474095739
 20
-230.2844376721
 10
458.9429279117
 20
-227.3023190027
 10
454.54044671
 20
-224.1199709123
 10
450.2522364735
 20
-220.7462631757
 10
446.0902492131
 20
-217.1905989216
 10
442.0660851338
 20
-213.4628884239
 10
438.1909603028
 20
-209.5735214804
 10
434.4756753879
 20
-205.5333384543
 10
430.9305855546
 20
-201.3536000603
 10
427.5655716041
 20
-197.0459559791
 10
424.3900124337
 20
-192.6224123873
 10
421.4127588965
 20
-188.0952984943
 10
418.6421091321
 20
-183.4772321784
 10
416.0857854382
 20
-178.7810848188
 10
413.7509127475
 20
-174.0199454204
 10
411.643998769
 20
-169.2070841328
 10
409.7709158499
 20
-164.3559152634
 10
408.1368846081
 20
-159.4799598901
 10
407.5765338285
 20
-157.6128649033
  0
ENDSEC
  0
SECTION
  2
OBJECTS
  0
DICTIONARY
  5
C
330
0
100
AcDbDictionary
281
     1
  3
ACAD_GROUP
350
D
  3
ACAD_LAYOUT
350
1A
  3
ACAD_MLINESTYLE
350
17
  3
ACAD_PLOTSETTINGS
350
19
  3
ACAD_PLOTSTYLENAME
350
E
  3
ACAD_SCALELIST
350
47
  0
DICTIONARY
  5
D
102
{ACAD_REACTORS
330
C
102
}
330
C
100
AcDbDictionary
281
     1
  0
DICTIONARY
  5
1A
102
{ACAD_REACTORS
330
C
102
}
330
C
100
AcDbDictionary
281
     1
  3
Layout1
350
1E
  3
Layout2
350
26
  3
Model
350
22
  0
DICTIONARY
  5
17
102
{ACAD_REACTORS
330
C
102
}
330
C
100
AcDbDictionary
281
     1
  3
Standard
350
18
  0
DICTIONARY
  5
19
102
{ACAD_REACTORS
330
C
102
}
330
C
100
AcDbDictionary
281
     1
  0
ACDBDICTIONARYWDFLT
  5
E
102
{ACAD_REACTORS
330
C
102
}
330
C
100
AcDbDictionary
281
     1
  3
Normal
350
F
100
AcDbDictionaryWithDefault
340
F
  0
DICTIONARY
  5
47
102
{ACAD_REACTORS
330
C
102
}
330
C
100
AcDbDictionary
281
     1
  3
A0
350
48
  3
A1
350
49
  3
A2
350
4A
  3
A3
350
4B
  3
A4
350
4C
  3
A5
350
4D
  3
A6
350
4E
  3
A7
350
4F
  3
A8
350
50
  3
A9
350
51
  3
B0
350
52
  3
B1
350
53
  3
B2
350
54
  3
B3
350
55
  3
B4
350
56
  3
B5
350
57
  3
B6
350
58
  3
B7
350
59
  3
B8
350
5A
  3
B9
350
5B
  3
C0
350
5C
  3
C1
350
5D
  3
C2
350
5E
  3
C3
350
5F
  3
C4
350
60
  3
C5
350
61
  3
C6
350
62
  3
C7
350
63
  3
C8
350
64
  3
C9
350
65
  3
D0
350
66
  3
D1
350
67
  3
D2
350
68
  0
LAYOUT
  5
1E
102
{ACAD_REACTORS
330
1A
102
}
330
1A
100
AcDbPlotSettings
  1

  2
none_device
  4

  6

 40
0.0
 41
0.0
 42
0.0
 43
0.0
 44
0.0
 45
0.0
 46
0.0
 47
0.0
 48
0.0
 49
0.0
140
0.0
141
0.0
142
1.0
143
1.0
 70
   688
 72
     1
 73
     0
 74
     5
  7

 75
    16
147
1.0
148
0.0
149
0.0
100
AcDbLayout
  1
Layout1
 70
     1
 71
     1
 10
0.0
 20
0.0
 11
420.0
 21
297.0
 12
0.0
 22
0.0
 32
0.0
 14
1.0000000000E+20
 24
1.0000000000E+20
 34
1.0000000000E+20
 15
-1.0000000000E+20
 25
-1.0000000000E+20
 35
-1.0000000000E+20
146
0.0
 13
0.0
 23
0.0
 33
0.0
 16
1.0
 26
0.0
 36
0.0
 17
0.0
 27
1.0
 37
0.0
 76
     0
330
1B
  0
LAYOUT
  5
26
102
{ACAD_REACTORS
330
1A
102
}
330
1A
100
AcDbPlotSettings
  1

  2
none_device
  4

  6

 40
0.0
 41
0.0
 42
0.0
 43
0.0
 44
0.0
 45
0.0
 46
0.0
 47
0.0
 48
0.0
 49
0.0
140
0.0
141
0.0
142
1.0
143
1.0
 70
   688
 72
     1
 73
     0
 74
     5
  7

 75
    16
147
1.0
148
0.0
149
0.0
100
AcDbLayout
  1
Layout2
 70
     1
 71
     2
 10
0.0
 20
0.0
 11
0.0
 21
0.0
 12
0.0
 22
0.0
 32
0.0
 14
0.0
 24
0.0
 34
0.0
 15
0.0
 25
0.0
 35
0.0
146
0.0
 13
0.0
 23
0.0
 33
0.0
 16
1.0
 26
0.0
 36
0.0
 17
0.0
 27
1.0
 37
0.0
 76
     0
330
23
  0
LAYOUT
  5
22
102
{ACAD_REACTORS
330
1A
102
}
330
1A
100
AcDbPlotSettings
  1

  2
none_device
  4
Letter_(8.50_x_11.00_Inches)
  6

 40
6.35
 41
6.35
 42
6.35000508
 43
6.35000508
 44
215.9
 45
279.4
 46
0.0
 47
0.0
 48
0.0
 49
0.0
140
0.0
141
0.0
142
1.0
143
1.0
 70
  1712
 72
     1
 73
     0
 74
     0
  7

 75
     0
147
1.0
148
0.0
149
0.0
100
AcDbLayout
  1
Model
 70
     1
 71
     0
 10
0.0
 20
0.0
 11
279.4
 21
215.9
 12
0.0
 22
0.0
 32
0.0
 14
0.0
 24
0.0
 34
0.0
 15
279.4
 25
215.9
 35
0.0
146
0.0
 13
0.0
 23
0.0
 33
0.0
 16
1.0
 26
0.0
 36
0.0
 17
0.0
 27
1.0
 37
0.0
 76
     0
330
1F
331
29
  0
MLINESTYLE
  5
18
102
{ACAD_REACTORS
330
17
102
}
330
17
100
AcDbMlineStyle
  2
Standard
 70
     0
  3

 62
   256
 51
90.0
 52
90.0
 71
     2
 49
0.5
 62
   256
  6
BYLAYER
 49
-0.5
 62
   256
  6
BYLAYER
  0
ACDBPLACEHOLDER
  5
F
102
{ACAD_REACTORS
330
E
102
}
330
E
  0
SCALE
  5
48
102
{ACAD_REACTORS
330
47
102
}
330
47
100
AcDbScale
 70
     0
300
1:1
140
1.0
141
1.0
290
     1
  0
SCALE
  5
49
102
{ACAD_REACTORS
330
47
102
}
330
47
100
AcDbScale
 70
     0
300
1:2
140
1.0
141
2.0
290
     0
  0
SCALE
  5
4A
102
{ACAD_REACTORS
330
47
102
}
330
47
100
AcDbScale
 70
     0
300
1:4
140
1.0
141
4.0
290
     0
  0
SCALE
  5
4B
102
{ACAD_REACTORS
330
47
102
}
330
47
100
AcDbScale
 70
     0
300
1:5
140
1.0
141
5.0
290
     0
  0
SCALE
  5
4C
102
{ACAD_REACTORS
330
47
102
}
330
47
100
AcDbScale
 70
     0
300
1:8
140
1.0
141
8.0
290
     0
  0
SCALE
  5
4D
102
{ACAD_REACTORS
330
47
102
}
330
47
100
AcDbScale
 70
     0
300
1:10
140
1.0
141
10.0
290
     0
  0
SCALE
  5
4E
102
{ACAD_REACTORS
330
47
102
}
330
47
100
AcDbScale
 70
     0
300
1:16
140
1.0
141
16.0
290
     0
  0
SCALE
  5
4F
102
{ACAD_REACTORS
330
47
102
}
330
47
100
AcDbScale
 70
     0
300
1:20
140
1.0
141
20.0
290
     0
  0
SCALE
  5
50
102
{ACAD_REACTORS
330
47
102
}
330
47
100
AcDbScale
 70
     0
300
1:30
140
1.0
141
30.0
290
     0
  0
SCALE
  5
51
102
{ACAD_REACTORS
330
47
102
}
330
47
100
AcDbScale
 70
     0
300
1:40
140
1.0
141
40.0
290
     0
  0
SCALE
  5
52
102
{ACAD_REACTORS
330
47
102
}
330
47
100
AcDbScale
 70
     0
300
1:50
140
1.0
141
50.0
290
     0
  0
SCALE
  5
53
102
{ACAD_REACTORS
330
47
102
}
330
47
100
AcDbScale
 70
     0
300
1:100
140
1.0
141
100.0
290
     0
  0
SCALE
  5
54
102
{ACAD_REACTORS
330
47
102
}
330
47
100
AcDbScale
 70
     0
300
2:1
140
2.0
141
1.0
290
     0
  0
SCALE
  5
55
102
{ACAD_REACTORS
330
47
102
}
330
47
100
AcDbScale
 70
     0
300
4:1
140
4.0
141
1.0
290
     0
  0
SCALE
  5
56
102
{ACAD_REACTORS
330
47
102
}
330
47
100
AcDbScale
 70
     0
300
8:1
140
8.0
141
1.0
290
     0
  0
SCALE
  5
57
102
{ACAD_REACTORS
330
47
102
}
330
47
100
AcDbScale
 70
     0
300
10:1
140
10.0
141
1.0
290
     0
  0
SCALE
  5
58
102
{ACAD_REACTORS
330
47
102
}
330
47
100
AcDbScale
 70
     0
300
100:1
140
100.0
141
1.0
290
     0
  0
SCALE
  5
59
102
{ACAD_REACTORS
330
47
102
}
330
47
100
AcDbScale
 70
     0
300
1/128" = 1'-0"
140
0.0078125
141
12.0
290
     0
  0
SCALE
  5
5A
102
{ACAD_REACTORS
330
47
102
}
330
47
100
AcDbScale
 70
     0
300
1/64" = 1'-0"
140
0.015625
141
12.0
290
     0
  0
SCALE
  5
5B
102
{ACAD_REACTORS
330
47
102
}
330
47
100
AcDbScale
 70
     0
300
1/32" = 1'-0"
140
0.03125
141
12.0
290
     0
  0
SCALE
  5
5C
102
{ACAD_REACTORS
330
47
102
}
330
47
100
AcDbScale
 70
     0
300
1/16" = 1'-0"
140
0.0625
141
12.0
290
     0
  0
SCALE
  5
5D
102
{ACAD_REACTORS
330
47
102
}
330
47
100
AcDbScale
 70
     0
300
3/32" = 1'-0"
140
0.09375
141
12.0
290
     0
  0
SCALE
  5
5E
102
{ACAD_REACTORS
330
47
102
}
330
47
100
AcDbScale
 70
     0
300
1/8" = 1'-0"
140
0.125
141
12.0
290
     0
  0
SCALE
  5
5F
102
{ACAD_REACTORS
330
47
102
}
330
47
100
AcDbScale
 70
     0
300
3/16" = 1'-0"
140
0.1875
141
12.0
290
     0
  0
SCALE
  5
60
102
{ACAD_REACTORS
330
47
102
}
330
47
100
AcDbScale
 70
     0
300
1/4" = 1'-0"
140
0.25
141
12.0
290
     0
  0
SCALE
  5
61
102
{ACAD_REACTORS
330
47
102
}
330
47
100
AcDbScale
 70
     0
300
3/8" = 1'-0"
140
0.375
141
12.0
290
     0
  0
SCALE
  5
62
102
{ACAD_REACTORS
330
47
102
}
330
47
100
AcDbScale
 70
     0
300
1/2" = 1'-0"
140
0.5
141
12.0
290
     0
  0
SCALE
  5
63
102
{ACAD_REACTORS
330
47
102
}
330
47
100
AcDbScale
 70
     0
300
3/4" = 1'-0"
140
0.75
141
12.0
290
     0
  0
SCALE
  5
64
102
{ACAD_REACTORS
330
47
102
}
330
47
100
AcDbScale
 70
     0
300
1" = 1'-0"
140
1.0
141
12.0
290
     0
  0
SCALE
  5
65
102
{ACAD_REACTORS
330
47
102
}
330
47
100
AcDbScale
 70
     0
300
1-1/2" = 1'-0"
140
1.5
141
12.0
290
     0
  0
SCALE
  5
66
102
{ACAD_REACTORS
330
47
102
}
330
47
100
AcDbScale
 70
     0
300
3" = 1'-0"
140
3.0
141
12.0
290
     0
  0
SCALE
  5
67
102
{ACAD_REACTORS
330
47
102
}
330
47
100
AcDbScale
 70
     0
300
6" = 1'-0"
140
6.0
141
12.0
290
     0
  0
SCALE
  5
68
102
{ACAD_REACTORS
330
47
102
}
330
47
100
AcDbScale
 70
     0
300
1'-0" = 1'-0"
140
12.0
141
12.0
290
     0
  0
ENDSEC
  0
EOF
